ISO-10303-21;
HEADER;
FILE_DESCRIPTION (( 'STEP AP203' ),
    '1' );
FILE_NAME ('MHWP-25.4-632.8.STEP',
    '2020-12-22T09:26:38',
    ( '' ),
    ( '' ),
    'SwSTEP 2.0',
    'SolidWorks 2020',
    '' );
FILE_SCHEMA (( 'CONFIG_CONTROL_DESIGN' ));
ENDSEC;

DATA;
#1 = ORIENTED_EDGE ( 'NONE', *, *, #4, .T. ) ;
#2 = VERTEX_POINT ( 'NONE', #135 ) ;
#3 = CYLINDRICAL_SURFACE ( 'NONE', #90, 12.69999999999999929 ) ;
#4 = EDGE_CURVE ( 'NONE', #2, #38, #105, .T. ) ;
#5 = DATE_AND_TIME ( #59, #37 ) ;
#6 = FACE_OUTER_BOUND ( 'NONE', #76, .T. ) ;
#7 = DATE_AND_TIME ( #91, #29 ) ;
#8 = CYLINDRICAL_SURFACE ( 'NONE', #87, 12.69999999999999929 ) ;
#9 = APPROVAL_PERSON_ORGANIZATION ( #86, #117, #43 ) ;
#10 = DIRECTION ( 'NONE',  ( 0.000000000000000000, 0.000000000000000000, 1.000000000000000000 ) ) ;
#11 = APPLICATION_CONTEXT ( 'configuration controlled 3d designs of mechanical parts and assemblies' ) ;
#12 = EDGE_LOOP ( 'NONE', ( #78, #1, #39, #174 ) ) ;
#13 = APPROVAL ( #143, 'UNSPECIFIED' ) ;
#14 = VECTOR ( 'NONE', #164, 1000.000000000000000 ) ;
#15 = ORIENTED_EDGE ( 'NONE', *, *, #173, .F. ) ;
#16 = CARTESIAN_POINT ( 'NONE',  ( -1.187907395172932594E-15, 0.000000000000000000, 12.69999999999999929 ) ) ;
#17 = PERSON_AND_ORGANIZATION ( #116, #66 ) ;
#18 = PERSON_AND_ORGANIZATION ( #116, #66 ) ;
#19 = COORDINATED_UNIVERSAL_TIME_OFFSET ( 8, 0, .AHEAD. ) ;
#20 = MECHANICAL_CONTEXT ( 'NONE', #11, 'mechanical' ) ;
#21 = EDGE_LOOP ( 'NONE', ( #67, #51 ) ) ;
#22 = ORIENTED_EDGE ( 'NONE', *, *, #23, .F. ) ;
#23 = EDGE_CURVE ( 'NONE', #98, #36, #63, .T. ) ;
#24 = ORIENTED_EDGE ( 'NONE', *, *, #34, .T. ) ;
#25 = DIRECTION ( 'NONE',  ( 0.000000000000000000, 0.000000000000000000, 1.000000000000000000 ) ) ;
#26 = SECURITY_CLASSIFICATION_LEVEL ( 'unclassified' ) ;
#27 = ADVANCED_FACE ( 'NONE', ( #92 ), #55, .F. ) ;
#28 = APPROVAL_STATUS ( 'not_yet_approved' ) ;
#29 = LOCAL_TIME ( 17, 26, 38.00000000000000000, #41 ) ;
#30 = DIRECTION ( 'NONE',  ( 1.000000000000000000, 0.000000000000000000, 0.000000000000000000 ) ) ;
#31 = CC_DESIGN_APPROVAL ( #114, ( #64 ) ) ;
#32 = CARTESIAN_POINT ( 'NONE',  ( 1.999999999999998224, 0.000000000000000000, 0.000000000000000000 ) ) ;
#33 = CC_DESIGN_SECURITY_CLASSIFICATION ( #170, ( #64 ) ) ;
#34 = EDGE_CURVE ( 'NONE', #2, #36, #171, .T. ) ;
#35 = ORIENTED_EDGE ( 'NONE', *, *, #140, .F. ) ;
#36 = VERTEX_POINT ( 'NONE', #126 ) ;
#37 = LOCAL_TIME ( 17, 26, 38.00000000000000000, #19 ) ;
#38 = VERTEX_POINT ( 'NONE', #46 ) ;
#39 = ORIENTED_EDGE ( 'NONE', *, *, #173, .T. ) ;
#40 = CARTESIAN_POINT ( 'NONE',  ( 1.999999999999999112, 12.69999999999999929, 0.000000000000000000 ) ) ;
#41 = COORDINATED_UNIVERSAL_TIME_OFFSET ( 8, 0, .AHEAD. ) ;
#42 = CARTESIAN_POINT ( 'NONE',  ( 1.999999999999998224, 0.000000000000000000, 0.000000000000000000 ) ) ;
#43 = APPROVAL_ROLE ( '' ) ;
#44 = FACE_OUTER_BOUND ( 'NONE', #145, .T. ) ;
#45 = APPROVAL_ROLE ( '' ) ;
#46 = CARTESIAN_POINT ( 'NONE',  ( 1.999999999999998224, 0.000000000000000000, 12.69999999999999929 ) ) ;
#47 = COORDINATED_UNIVERSAL_TIME_OFFSET ( 8, 0, .AHEAD. ) ;
#48 = DIRECTION ( 'NONE',  ( 1.000000000000000000, 0.000000000000000000, 0.000000000000000000 ) ) ;
#49 = MANIFOLD_SOLID_BREP ( 'Ðý×', #128 ) ;
#50 = CARTESIAN_POINT ( 'NONE',  ( -1.187907395172932594E-15, 0.000000000000000000, 0.000000000000000000 ) ) ;
#51 = ORIENTED_EDGE ( 'NONE', *, *, #129, .T. ) ;
#52 = LINE ( 'NONE', #103, #14 ) ;
#53 = PERSON_AND_ORGANIZATION_ROLE ( 'classification_officer' ) ;
#54 = DIRECTION ( 'NONE',  ( 0.000000000000000000, 0.000000000000000000, 1.000000000000000000 ) ) ;
#55 = PLANE ( 'NONE',  #134 ) ;
#56 = CARTESIAN_POINT ( 'NONE',  ( 0.000000000000000000, 0.000000000000000000, 0.000000000000000000 ) ) ;
#57 = APPROVAL_STATUS ( 'not_yet_approved' ) ;
#58 = CARTESIAN_POINT ( 'NONE',  ( 0.000000000000000000, 0.000000000000000000, 0.000000000000000000 ) ) ;
#59 = CALENDAR_DATE ( 2020, 22, 12 ) ;
#60 = DIRECTION ( 'NONE',  ( -1.000000000000000000, -0.000000000000000000, -0.000000000000000000 ) ) ;
#61 = APPROVAL_ROLE ( '' ) ;
#62 = CIRCLE ( 'NONE', #84, 12.69999999999999929 ) ;
#63 = CIRCLE ( 'NONE', #156, 12.69999999999999929 ) ;
#64 = PRODUCT_DEFINITION_FORMATION_WITH_SPECIFIED_SOURCE ( 'ANY', '', #132, .NOT_KNOWN. ) ;
#65 = APPLICATION_CONTEXT ( 'configuration controlled 3d designs of mechanical parts and assemblies' ) ;
#66 = ORGANIZATION ( 'UNSPECIFIED', 'UNSPECIFIED', '' ) ;
#67 = ORIENTED_EDGE ( 'NONE', *, *, #23, .T. ) ;
#68 = DIRECTION ( 'NONE',  ( -1.000000000000000000, -0.000000000000000000, -0.000000000000000000 ) ) ;
#69 = DIRECTION ( 'NONE',  ( -1.000000000000000000, -0.000000000000000000, -0.000000000000000000 ) ) ;
#70 = LOCAL_TIME ( 17, 26, 38.00000000000000000, #123 ) ;
#71 = DIRECTION ( 'NONE',  ( -0.000000000000000000, 0.000000000000000000, 1.000000000000000000 ) ) ;
#72 = APPROVAL_DATE_TIME ( #94, #13 ) ;
#73 = CARTESIAN_POINT ( 'NONE',  ( 0.000000000000000000, 0.000000000000000000, 0.000000000000000000 ) ) ;
#74 = CALENDAR_DATE ( 2020, 22, 12 ) ;
#75 = ADVANCED_FACE ( 'NONE', ( #137 ), #3, .T. ) ;
#76 = EDGE_LOOP ( 'NONE', ( #35, #148 ) ) ;
#77 = CIRCLE ( 'NONE', #89, 12.69999999999999929 ) ;
#78 = ORIENTED_EDGE ( 'NONE', *, *, #34, .F. ) ;
#79 = DIRECTION ( 'NONE',  ( -1.000000000000000000, -0.000000000000000000, -0.000000000000000000 ) ) ;
#80 = CALENDAR_DATE ( 2020, 22, 12 ) ;
#81 = SHAPE_DEFINITION_REPRESENTATION ( #118, #125 ) ;
#82 = ADVANCED_FACE ( 'NONE', ( #6 ), #107, .F. ) ;
#83 = PERSON_AND_ORGANIZATION_ROLE ( 'creator' ) ;
#84 = AXIS2_PLACEMENT_3D ( 'NONE', #166, #69, #25 ) ;
#85 = APPLICATION_PROTOCOL_DEFINITION ( 'international standard', 'config_control_design', 1994, #11 ) ;
#86 = PERSON_AND_ORGANIZATION ( #116, #66 ) ;
#87 = AXIS2_PLACEMENT_3D ( 'NONE', #56, #60, #100 ) ;
#88 = ADVANCED_FACE ( 'NONE', ( #44 ), #8, .T. ) ;
#89 = AXIS2_PLACEMENT_3D ( 'NONE', #42, #151, #95 ) ;
#90 = AXIS2_PLACEMENT_3D ( 'NONE', #73, #79, #54 ) ;
#91 = CALENDAR_DATE ( 2020, 22, 12 ) ;
#92 = FACE_OUTER_BOUND ( 'NONE', #21, .T. ) ;
#93 = DIRECTION ( 'NONE',  ( 0.000000000000000000, 0.000000000000000000, -1.000000000000000000 ) ) ;
#94 = DATE_AND_TIME ( #74, #153 ) ;
#95 = DIRECTION ( 'NONE',  ( 0.000000000000000000, 0.000000000000000000, 1.000000000000000000 ) ) ;
#96 = APPROVAL_PERSON_ORGANIZATION ( #18, #114, #61 ) ;
#97 = CC_DESIGN_PERSON_AND_ORGANIZATION_ASSIGNMENT ( #127, #53, ( #170 ) ) ;
#98 = VERTEX_POINT ( 'NONE', #16 ) ;
#99 = CC_DESIGN_PERSON_AND_ORGANIZATION_ASSIGNMENT ( #152, #106, ( #132 ) ) ;
#100 = DIRECTION ( 'NONE',  ( 0.000000000000000000, 0.000000000000000000, 1.000000000000000000 ) ) ;
#101 = COORDINATED_UNIVERSAL_TIME_OFFSET ( 8, 0, .AHEAD. ) ;
#102 = APPROVAL_PERSON_ORGANIZATION ( #154, #13, #45 ) ;
#103 = CARTESIAN_POINT ( 'NONE',  ( 0.000000000000000000, 0.000000000000000000, 12.69999999999999929 ) ) ;
#104 = PRODUCT_RELATED_PRODUCT_CATEGORY ( 'detail', '', ( #132 ) ) ;
#105 = CIRCLE ( 'NONE', #172, 12.69999999999999929 ) ;
#106 = PERSON_AND_ORGANIZATION_ROLE ( 'design_owner' ) ;
#107 = PLANE ( 'NONE',  #162 ) ;
#108 = PERSON_AND_ORGANIZATION_ROLE ( 'design_supplier' ) ;
#109 = DIRECTION ( 'NONE',  ( 0.000000000000000000, 0.000000000000000000, 1.000000000000000000 ) ) ;
#110 = APPLICATION_PROTOCOL_DEFINITION ( 'international standard', 'config_control_design', 1994, #65 ) ;
#111 = CC_DESIGN_PERSON_AND_ORGANIZATION_ASSIGNMENT ( #138, #83, ( #64 ) ) ;
#112 =( NAMED_UNIT ( * ) SI_UNIT ( $, .STERADIAN. ) SOLID_ANGLE_UNIT ( ) );
#113 = VECTOR ( 'NONE', #142, 1000.000000000000000 ) ;
#114 = APPROVAL ( #57, 'UNSPECIFIED' ) ;
#115 = AXIS2_PLACEMENT_3D ( 'NONE', #58, #109, #30 ) ;
#116 = PERSON ( 'UNSPECIFIED', 'UNSPECIFIED', 'UNSPECIFIED', ('UNSPECIFIED'), ('UNSPECIFIED'), ('UNSPECIFIED') ) ;
#117 = APPROVAL ( #28, 'UNSPECIFIED' ) ;
#118 = PRODUCT_DEFINITION_SHAPE ( 'NONE', 'NONE',  #147 ) ;
#119 = CC_DESIGN_APPROVAL ( #117, ( #170 ) ) ;
#120 = CARTESIAN_POINT ( 'NONE',  ( 0.000000000000000000, 1.555301434917138433E-15, -12.69999999999999929 ) ) ;
#121 = APPROVAL_DATE_TIME ( #124, #114 ) ;
#122 = DIRECTION ( 'NONE',  ( -1.000000000000000000, 0.000000000000000000, -0.000000000000000000 ) ) ;
#123 = COORDINATED_UNIVERSAL_TIME_OFFSET ( 8, 0, .AHEAD. ) ;
#124 = DATE_AND_TIME ( #139, #161 ) ;
#125 = ADVANCED_BREP_SHAPE_REPRESENTATION ( 'MHWP-25.4-632.8', ( #49, #115 ), #155 ) ;
#126 = CARTESIAN_POINT ( 'NONE',  ( -1.187907395172932594E-15, 1.555301434917138433E-15, -12.69999999999999929 ) ) ;
#127 = PERSON_AND_ORGANIZATION ( #116, #66 ) ;
#128 = CLOSED_SHELL ( 'NONE', ( #88, #75, #82, #27 ) ) ;
#129 = EDGE_CURVE ( 'NONE', #36, #98, #62, .T. ) ;
#130 = DESIGN_CONTEXT ( 'detailed design', #65, 'design' ) ;
#131 = DIRECTION ( 'NONE',  ( -1.000000000000000000, -0.000000000000000000, -0.000000000000000000 ) ) ;
#132 = PRODUCT ( 'MHWP-25.4-632.8', 'MHWP-25.4-632.8', '', ( #20 ) ) ;
#133 = CC_DESIGN_DATE_AND_TIME_ASSIGNMENT ( #7, #169, ( #170 ) ) ;
#134 = AXIS2_PLACEMENT_3D ( 'NONE', #150, #48, #93 ) ;
#135 = CARTESIAN_POINT ( 'NONE',  ( 1.999999999999998224, 1.555301434917138433E-15, -12.69999999999999929 ) ) ;
#136 = UNCERTAINTY_MEASURE_WITH_UNIT (LENGTH_MEASURE( 1.000000000000000082E-05 ), #159, 'distance_accuracy_value', 'NONE');
#137 = FACE_OUTER_BOUND ( 'NONE', #12, .T. ) ;
#138 = PERSON_AND_ORGANIZATION ( #116, #66 ) ;
#139 = CALENDAR_DATE ( 2020, 22, 12 ) ;
#140 = EDGE_CURVE ( 'NONE', #38, #2, #77, .T. ) ;
#141 = DATE_TIME_ROLE ( 'creation_date' ) ;
#142 = DIRECTION ( 'NONE',  ( -1.000000000000000000, -0.000000000000000000, -0.000000000000000000 ) ) ;
#143 = APPROVAL_STATUS ( 'not_yet_approved' ) ;
#144 = CC_DESIGN_APPROVAL ( #13, ( #147 ) ) ;
#145 = EDGE_LOOP ( 'NONE', ( #158, #24, #22, #15 ) ) ;
#146 = CC_DESIGN_PERSON_AND_ORGANIZATION_ASSIGNMENT ( #149, #160, ( #147 ) ) ;
#147 = PRODUCT_DEFINITION ( 'UNKNOWN', '', #64, #130 ) ;
#148 = ORIENTED_EDGE ( 'NONE', *, *, #4, .F. ) ;
#149 = PERSON_AND_ORGANIZATION ( #116, #66 ) ;
#150 = CARTESIAN_POINT ( 'NONE',  ( -5.939536975864662969E-16, 12.69999999999999929, 0.000000000000000000 ) ) ;
#151 = DIRECTION ( 'NONE',  ( -1.000000000000000000, -0.000000000000000000, -0.000000000000000000 ) ) ;
#152 = PERSON_AND_ORGANIZATION ( #116, #66 ) ;
#153 = LOCAL_TIME ( 17, 26, 38.00000000000000000, #47 ) ;
#154 = PERSON_AND_ORGANIZATION ( #116, #66 ) ;
#155 =( GEOMETRIC_REPRESENTATION_CONTEXT ( 3 ) GLOBAL_UNCERTAINTY_ASSIGNED_CONTEXT ( ( #136 ) ) GLOBAL_UNIT_ASSIGNED_CONTEXT ( ( #159, #168, #112 ) ) REPRESENTATION_CONTEXT ( 'NONE', 'WORKASPACE' ) );
#156 = AXIS2_PLACEMENT_3D ( 'NONE', #50, #68, #163 ) ;
#157 = CC_DESIGN_PERSON_AND_ORGANIZATION_ASSIGNMENT ( #17, #108, ( #64 ) ) ;
#158 = ORIENTED_EDGE ( 'NONE', *, *, #140, .T. ) ;
#159 =( LENGTH_UNIT ( ) NAMED_UNIT ( * ) SI_UNIT ( .MILLI., .METRE. ) );
#160 = PERSON_AND_ORGANIZATION_ROLE ( 'creator' ) ;
#161 = LOCAL_TIME ( 17, 26, 38.00000000000000000, #101 ) ;
#162 = AXIS2_PLACEMENT_3D ( 'NONE', #40, #122, #71 ) ;
#163 = DIRECTION ( 'NONE',  ( 0.000000000000000000, 0.000000000000000000, 1.000000000000000000 ) ) ;
#164 = DIRECTION ( 'NONE',  ( -1.000000000000000000, -0.000000000000000000, -0.000000000000000000 ) ) ;
#165 = DATE_AND_TIME ( #80, #70 ) ;
#166 = CARTESIAN_POINT ( 'NONE',  ( -1.187907395172932594E-15, 0.000000000000000000, 0.000000000000000000 ) ) ;
#167 = APPROVAL_DATE_TIME ( #165, #117 ) ;
#168 =( NAMED_UNIT ( * ) PLANE_ANGLE_UNIT ( ) SI_UNIT ( $, .RADIAN. ) );
#169 = DATE_TIME_ROLE ( 'classification_date' ) ;
#170 = SECURITY_CLASSIFICATION ( '', '', #26 ) ;
#171 = LINE ( 'NONE', #120, #113 ) ;
#172 = AXIS2_PLACEMENT_3D ( 'NONE', #32, #131, #10 ) ;
#173 = EDGE_CURVE ( 'NONE', #38, #98, #52, .T. ) ;
#174 = ORIENTED_EDGE ( 'NONE', *, *, #129, .F. ) ;
#175 = CC_DESIGN_DATE_AND_TIME_ASSIGNMENT ( #5, #141, ( #147 ) ) ;
ENDSEC;
END-ISO-10303-21;
